ISO-10303-21;
HEADER;
FILE_DESCRIPTION (( 'STEP AP203' ),
    '1' );
FILE_NAME ('End Cap SDR17_001 115 0140 0063.step',
    '2019-12-16T11:43:28',
    ( '' ),
    ( '' ),
    'SwSTEP 2.0',
    'SolidWorks 2019',
    '' );
FILE_SCHEMA (( 'CONFIG_CONTROL_DESIGN' ));
ENDSEC;

DATA;
#1 = CIRCLE ( 'NONE', #137, 27.69999999999997442 ) ;
#2 = AXIS2_PLACEMENT_3D ( 'NONE', #270, #51, #151 ) ;
#3 = ORIENTED_EDGE ( 'NONE', *, *, #304, .T. ) ;
#4 = FACE_BOUND ( 'NONE', #105, .T. ) ;
#5 = ORIENTED_EDGE ( 'NONE', *, *, #8, .T. ) ;
#6 = DIRECTION ( 'NONE',  ( 0.0000000000000000000, 0.0000000000000000000, 1.000000000000000000 ) ) ;
#7 = VERTEX_POINT ( 'NONE', #85 ) ;
#8 = EDGE_CURVE ( 'NONE', #22, #7, #47, .T. ) ;
#9 = PERSON_AND_ORGANIZATION ( #117, #242 ) ;
#10 = ORIENTED_EDGE ( 'NONE', *, *, #132, .T. ) ;
#11 = LOCAL_TIME ( 14, 43, 28.00000000000000000, #253 ) ;
#12 = PERSON_AND_ORGANIZATION ( #117, #242 ) ;
#13 = DIRECTION ( 'NONE',  ( -0.0000000000000000000, -1.000000000000000000, -0.0000000000000000000 ) ) ;
#14 = AXIS2_PLACEMENT_3D ( 'NONE', #77, #290, #198 ) ;
#15 = PERSON_AND_ORGANIZATION_ROLE ( 'classification_officer' ) ;
#16 = CARTESIAN_POINT ( 'NONE',  ( 0.0000000000000000000, 0.0000000000000000000, -27.69999999999997087 ) ) ;
#17 = EDGE_CURVE ( 'NONE', #125, #263, #266, .T. ) ;
#18 = DIRECTION ( 'NONE',  ( 0.0000000000000000000, 0.0000000000000000000, -1.000000000000000000 ) ) ;
#19 = PRODUCT_DEFINITION ( 'BÝLÝNMEYEN', '', #189, #196 ) ;
#20 = CYLINDRICAL_SURFACE ( 'NONE', #147, 27.69999999999997087 ) ;
#21 = CARTESIAN_POINT ( 'NONE',  ( 0.0000000000000000000, 0.0000000000000000000, 0.0000000000000000000 ) ) ;
#22 = VERTEX_POINT ( 'NONE', #215 ) ;
#23 = CIRCLE ( 'NONE', #163, 31.49999999999997158 ) ;
#24 = ORIENTED_EDGE ( 'NONE', *, *, #175, .F. ) ;
#25 = ADVANCED_FACE ( 'NONE', ( #58 ), #238, .F. ) ;
#26 = DIRECTION ( 'NONE',  ( 0.0000000000000000000, -1.000000000000000000, -0.0000000000000000000 ) ) ;
#27 = DIRECTION ( 'NONE',  ( -0.0000000000000000000, -1.000000000000000000, -0.0000000000000000000 ) ) ;
#28 = FACE_OUTER_BOUND ( 'NONE', #153, .T. ) ;
#29 = ORIENTED_EDGE ( 'NONE', *, *, #165, .T. ) ;
#30 = PERSON_AND_ORGANIZATION ( #117, #242 ) ;
#31 = ORIENTED_EDGE ( 'NONE', *, *, #195, .F. ) ;
#32 = CALENDAR_DATE ( 2019, 16, 12 ) ;
#33 = FACE_OUTER_BOUND ( 'NONE', #122, .T. ) ;
#34 =( GEOMETRIC_REPRESENTATION_CONTEXT ( 3 ) GLOBAL_UNCERTAINTY_ASSIGNED_CONTEXT ( ( #269 ) ) GLOBAL_UNIT_ASSIGNED_CONTEXT ( ( #102, #79, #53 ) ) REPRESENTATION_CONTEXT ( 'NONE', 'WORKASPACE' ) );
#35 = CC_DESIGN_APPROVAL ( #142, ( #267 ) ) ;
#36 = PERSON_AND_ORGANIZATION_ROLE ( 'design_supplier' ) ;
#37 = CARTESIAN_POINT ( 'NONE',  ( 3.392271633638164866E-15, 0.0000000000000000000, 27.69999999999997087 ) ) ;
#38 = DATE_AND_TIME ( #258, #171 ) ;
#39 = CARTESIAN_POINT ( 'NONE',  ( 0.0000000000000000000, 0.0000000000000000000, 0.0000000000000000000 ) ) ;
#40 = CIRCLE ( 'NONE', #176, 27.69999999999997442 ) ;
#41 = EDGE_CURVE ( 'NONE', #169, #222, #69, .T. ) ;
#42 = CARTESIAN_POINT ( 'NONE',  ( 0.0000000000000000000, 0.0000000000000000000, 0.0000000000000000000 ) ) ;
#43 = CC_DESIGN_PERSON_AND_ORGANIZATION_ASSIGNMENT ( #60, #158, ( #189 ) ) ;
#44 = CARTESIAN_POINT ( 'NONE',  ( 3.392271633638165655E-15, 0.0000000000000000000, 27.69999999999997797 ) ) ;
#45 = ORIENTED_EDGE ( 'NONE', *, *, #17, .T. ) ;
#46 = VERTEX_POINT ( 'NONE', #44 ) ;
#47 = CIRCLE ( 'NONE', #90, 122.2000749799277486 ) ;
#48 = EDGE_CURVE ( 'NONE', #296, #222, #118, .T. ) ;
#49 = APPROVAL_PERSON_ORGANIZATION ( #12, #100, #205 ) ;
#50 = AXIS2_PLACEMENT_3D ( 'NONE', #249, #152, #52 ) ;
#51 = DIRECTION ( 'NONE',  ( -0.0000000000000000000, -1.000000000000000000, -0.0000000000000000000 ) ) ;
#52 = DIRECTION ( 'NONE',  ( 0.0000000000000000000, 0.0000000000000000000, -1.000000000000000000 ) ) ;
#53 =( NAMED_UNIT ( * ) SI_UNIT ( $, .STERADIAN. ) SOLID_ANGLE_UNIT ( ) );
#54 = ORIENTED_EDGE ( 'NONE', *, *, #186, .T. ) ;
#55 = MECHANICAL_CONTEXT ( 'NONE', #185, 'mechanical' ) ;
#56 = ORIENTED_EDGE ( 'NONE', *, *, #219, .T. ) ;
#57 = PERSON_AND_ORGANIZATION ( #117, #242 ) ;
#58 = FACE_OUTER_BOUND ( 'NONE', #250, .T. ) ;
#59 = ADVANCED_BREP_SHAPE_REPRESENTATION ( 'End Cap SDR17_001 115 0140 0063', ( #251, #95 ), #34 ) ;
#60 = PERSON_AND_ORGANIZATION ( #117, #242 ) ;
#61 = DIRECTION ( 'NONE',  ( -0.0000000000000000000, -1.000000000000000000, -0.0000000000000000000 ) ) ;
#62 = APPROVAL_ROLE ( '' ) ;
#63 = DIRECTION ( 'NONE',  ( -0.0000000000000000000, -1.000000000000000000, -0.0000000000000000000 ) ) ;
#64 = ADVANCED_FACE ( 'NONE', ( #33 ), #73, .T. ) ;
#65 = CIRCLE ( 'NONE', #202, 27.69999999999996732 ) ;
#66 = CARTESIAN_POINT ( 'NONE',  ( 0.0000000000000000000, -56.19792303298354597, 0.0000000000000000000 ) ) ;
#67 = CIRCLE ( 'NONE', #164, 31.49999999999997158 ) ;
#68 = DIRECTION ( 'NONE',  ( 0.0000000000000000000, 0.0000000000000000000, -1.000000000000000000 ) ) ;
#69 = LINE ( 'NONE', #167, #170 ) ;
#70 = ORIENTED_EDGE ( 'NONE', *, *, #110, .T. ) ;
#71 = ORIENTED_EDGE ( 'NONE', *, *, #234, .F. ) ;
#72 = ADVANCED_FACE ( 'NONE', ( #94 ), #20, .F. ) ;
#73 = TOROIDAL_SURFACE ( 'NONE', #211, 0.7794972238090204231, 125.9999999999999432 ) ;
#74 = FACE_OUTER_BOUND ( 'NONE', #178, .T. ) ;
#75 = CC_DESIGN_PERSON_AND_ORGANIZATION_ASSIGNMENT ( #30, #130, ( #104 ) ) ;
#76 = PRODUCT_RELATED_PRODUCT_CATEGORY ( 'detail', '', ( #104 ) ) ;
#77 = CARTESIAN_POINT ( 'NONE',  ( 0.0000000000000000000, -56.19792303298354597, 0.0000000000000000000 ) ) ;
#78 = PRODUCT_DEFINITION_SHAPE ( 'NONE', 'NONE',  #19 ) ;
#79 =( NAMED_UNIT ( * ) PLANE_ANGLE_UNIT ( ) SI_UNIT ( $, .RADIAN. ) );
#80 = ORIENTED_EDGE ( 'NONE', *, *, #155, .T. ) ;
#81 = CARTESIAN_POINT ( 'NONE',  ( 0.0000000000000000000, 0.0000000000000000000, 0.0000000000000000000 ) ) ;
#82 = ORIENTED_EDGE ( 'NONE', *, *, #195, .T. ) ;
#83 = AXIS2_PLACEMENT_3D ( 'NONE', #300, #89, #184 ) ;
#84 = CALENDAR_DATE ( 2019, 16, 12 ) ;
#85 = CARTESIAN_POINT ( 'NONE',  ( 0.0000000000000000000, 62.99999999999995737, -27.69999999999996732 ) ) ;
#86 = CALENDAR_DATE ( 2019, 16, 12 ) ;
#87 = DIRECTION ( 'NONE',  ( -0.0000000000000000000, -1.000000000000000000, -0.0000000000000000000 ) ) ;
#88 = DATE_TIME_ROLE ( 'classification_date' ) ;
#89 = DIRECTION ( 'NONE',  ( 1.000000000000000000, 0.0000000000000000000, -1.224646799147353207E-16 ) ) ;
#90 = AXIS2_PLACEMENT_3D ( 'NONE', #286, #180, #307 ) ;
#91 = CC_DESIGN_APPROVAL ( #100, ( #189 ) ) ;
#92 = CARTESIAN_POINT ( 'NONE',  ( 0.0000000000000000000, 62.99999999999995737, 0.0000000000000000000 ) ) ;
#93 = AXIS2_PLACEMENT_3D ( 'NONE', #303, #115, #6 ) ;
#94 = FACE_OUTER_BOUND ( 'NONE', #154, .T. ) ;
#95 = AXIS2_PLACEMENT_3D ( 'NONE', #81, #177, #272 ) ;
#96 = CARTESIAN_POINT ( 'NONE',  ( 9.546087800819648841E-17, -56.19792303298354597, 0.7794972238090204231 ) ) ;
#97 = ADVANCED_FACE ( 'NONE', ( #236 ), #112, .T. ) ;
#98 = ORIENTED_EDGE ( 'NONE', *, *, #17, .F. ) ;
#99 = CARTESIAN_POINT ( 'NONE',  ( 0.0000000000000000000, 0.0000000000000000000, 0.0000000000000000000 ) ) ;
#100 = APPROVAL ( #111, 'BELÝRTÝLMEMÝÞ' ) ;
#101 = FACE_OUTER_BOUND ( 'NONE', #131, .T. ) ;
#102 =( LENGTH_UNIT ( ) NAMED_UNIT ( * ) SI_UNIT ( .MILLI., .METRE. ) );
#103 = VERTEX_POINT ( 'NONE', #261 ) ;
#104 = PRODUCT ( 'End Cap SDR17_001 115 0140 0063', 'End Cap SDR17_001 115 0140 0063', '', ( #55 ) ) ;
#105 = EDGE_LOOP ( 'NONE', ( #31, #239 ) ) ;
#106 = APPROVAL_STATUS ( 'not_yet_approved' ) ;
#107 = ORIENTED_EDGE ( 'NONE', *, *, #121, .F. ) ;
#108 = AXIS2_PLACEMENT_3D ( 'NONE', #42, #206, #166 ) ;
#109 = APPROVAL_PERSON_ORGANIZATION ( #9, #237, #203 ) ;
#110 = EDGE_CURVE ( 'NONE', #263, #169, #281, .T. ) ;
#111 = APPROVAL_STATUS ( 'not_yet_approved' ) ;
#112 = CYLINDRICAL_SURFACE ( 'NONE', #108, 31.49999999999997158 ) ;
#113 = COORDINATED_UNIVERSAL_TIME_OFFSET ( 3, 0, .AHEAD. ) ;
#114 = DIRECTION ( 'NONE',  ( -0.0000000000000000000, -1.000000000000000000, -0.0000000000000000000 ) ) ;
#115 = DIRECTION ( 'NONE',  ( -1.000000000000000000, 0.0000000000000000000, 0.0000000000000000000 ) ) ;
#116 = DIRECTION ( 'NONE',  ( 0.0000000000000000000, 0.0000000000000000000, -1.000000000000000000 ) ) ;
#117 = PERSON ( 'BELÝRTÝLMEMÝÞ', 'BELÝRTÝLMEMÝÞ', 'BELÝRTÝLMEMÝÞ', ('BELÝRTÝLMEMÝÞ'), ('BELÝRTÝLMEMÝÞ'), ('BELÝRTÝLMEMÝÞ') ) ;
#118 = CIRCLE ( 'NONE', #255, 31.49999999999997158 ) ;
#119 = CARTESIAN_POINT ( 'NONE',  ( 0.0000000000000000000, 0.0000000000000000000, 0.0000000000000000000 ) ) ;
#120 = DIRECTION ( 'NONE',  ( -1.224646799147353207E-16, 0.0000000000000000000, -1.000000000000000000 ) ) ;
#121 = EDGE_CURVE ( 'NONE', #199, #7, #65, .T. ) ;
#122 = EDGE_LOOP ( 'NONE', ( #98, #271, #273 ) ) ;
#123 = VECTOR ( 'NONE', #114, 1000.000000000000000 ) ;
#124 = CARTESIAN_POINT ( 'NONE',  ( 3.857637417314159533E-15, 0.0000000000000000000, 31.49999999999997158 ) ) ;
#125 = VERTEX_POINT ( 'NONE', #182 ) ;
#126 = CARTESIAN_POINT ( 'NONE',  ( 27.69999999999997442, 0.0000000000000000000, 0.0000000000000000000 ) ) ;
#127 = DIRECTION ( 'NONE',  ( 0.0000000000000000000, 0.0000000000000000000, -1.000000000000000000 ) ) ;
#128 = APPLICATION_PROTOCOL_DEFINITION ( 'international standard', 'config_control_design', 1994, #185 ) ;
#129 = ORIENTED_EDGE ( 'NONE', *, *, #48, .T. ) ;
#130 = PERSON_AND_ORGANIZATION_ROLE ( 'design_owner' ) ;
#131 = EDGE_LOOP ( 'NONE', ( #252, #129 ) ) ;
#132 = EDGE_CURVE ( 'NONE', #169, #263, #23, .T. ) ;
#133 = DATE_AND_TIME ( #32, #11 ) ;
#134 = CARTESIAN_POINT ( 'NONE',  ( 0.0000000000000000000, -56.19792303298354597, 0.0000000000000000000 ) ) ;
#135 = AXIS2_PLACEMENT_3D ( 'NONE', #96, #275, #120 ) ;
#136 = LOCAL_TIME ( 14, 43, 28.00000000000000000, #113 ) ;
#137 = AXIS2_PLACEMENT_3D ( 'NONE', #39, #141, #116 ) ;
#138 = SECURITY_CLASSIFICATION_LEVEL ( 'unclassified' ) ;
#139 = DIRECTION ( 'NONE',  ( -0.0000000000000000000, -1.000000000000000000, -0.0000000000000000000 ) ) ;
#140 = APPROVAL_DATE_TIME ( #38, #142 ) ;
#141 = DIRECTION ( 'NONE',  ( -0.0000000000000000000, -1.000000000000000000, -0.0000000000000000000 ) ) ;
#142 = APPROVAL ( #279, 'BELÝRTÝLMEMÝÞ' ) ;
#143 = DIRECTION ( 'NONE',  ( 0.0000000000000000000, 0.0000000000000000000, -1.000000000000000000 ) ) ;
#144 = CARTESIAN_POINT ( 'NONE',  ( 0.0000000000000000000, 0.0000000000000000000, 0.0000000000000000000 ) ) ;
#145 = ORIENTED_EDGE ( 'NONE', *, *, #48, .F. ) ;
#146 = EDGE_LOOP ( 'NONE', ( #24, #5, #3 ) ) ;
#147 = AXIS2_PLACEMENT_3D ( 'NONE', #119, #13, #143 ) ;
#148 = CC_DESIGN_APPROVAL ( #237, ( #19 ) ) ;
#149 = AXIS2_PLACEMENT_3D ( 'NONE', #126, #26, #246 ) ;
#150 = FACE_OUTER_BOUND ( 'NONE', #291, .T. ) ;
#151 = DIRECTION ( 'NONE',  ( 0.0000000000000000000, 0.0000000000000000000, -1.000000000000000000 ) ) ;
#152 = DIRECTION ( 'NONE',  ( -0.0000000000000000000, -1.000000000000000000, -0.0000000000000000000 ) ) ;
#153 = EDGE_LOOP ( 'NONE', ( #194, #174, #243 ) ) ;
#154 = EDGE_LOOP ( 'NONE', ( #107, #80, #56, #217 ) ) ;
#155 = EDGE_CURVE ( 'NONE', #199, #46, #257, .T. ) ;
#156 = PERSON_AND_ORGANIZATION_ROLE ( 'creator' ) ;
#157 = DIRECTION ( 'NONE',  ( -0.0000000000000000000, -1.000000000000000000, -0.0000000000000000000 ) ) ;
#158 = PERSON_AND_ORGANIZATION_ROLE ( 'creator' ) ;
#159 = DIRECTION ( 'NONE',  ( 0.0000000000000000000, 0.0000000000000000000, -1.000000000000000000 ) ) ;
#160 = CC_DESIGN_DATE_AND_TIME_ASSIGNMENT ( #133, #225, ( #19 ) ) ;
#161 = COORDINATED_UNIVERSAL_TIME_OFFSET ( 3, 0, .AHEAD. ) ;
#162 = DIRECTION ( 'NONE',  ( -0.0000000000000000000, -1.000000000000000000, -0.0000000000000000000 ) ) ;
#163 = AXIS2_PLACEMENT_3D ( 'NONE', #278, #61, #159 ) ;
#164 = AXIS2_PLACEMENT_3D ( 'NONE', #210, #288, #209 ) ;
#165 = EDGE_CURVE ( 'NONE', #7, #103, #230, .T. ) ;
#166 = DIRECTION ( 'NONE',  ( 0.0000000000000000000, 0.0000000000000000000, -1.000000000000000000 ) ) ;
#167 = CARTESIAN_POINT ( 'NONE',  ( 0.0000000000000000000, 0.0000000000000000000, -31.49999999999997158 ) ) ;
#168 = ORIENTED_EDGE ( 'NONE', *, *, #132, .F. ) ;
#169 = VERTEX_POINT ( 'NONE', #208 ) ;
#170 = VECTOR ( 'NONE', #262, 1000.000000000000000 ) ;
#171 = LOCAL_TIME ( 14, 43, 28.00000000000000000, #161 ) ;
#172 = CYLINDRICAL_SURFACE ( 'NONE', #2, 31.49999999999997158 ) ;
#173 = CARTESIAN_POINT ( 'NONE',  ( 3.857637417314159533E-15, 65.99966576965211118, 31.49999999999997158 ) ) ;
#174 = ORIENTED_EDGE ( 'NONE', *, *, #175, .T. ) ;
#175 = EDGE_CURVE ( 'NONE', #22, #199, #260, .T. ) ;
#176 = AXIS2_PLACEMENT_3D ( 'NONE', #99, #162, #18 ) ;
#177 = DIRECTION ( 'NONE',  ( 0.0000000000000000000, 0.0000000000000000000, 1.000000000000000000 ) ) ;
#178 = EDGE_LOOP ( 'NONE', ( #265, #70, #200, #145 ) ) ;
#179 = DATE_AND_TIME ( #84, #282 ) ;
#180 = DIRECTION ( 'NONE',  ( -1.000000000000000000, 0.0000000000000000000, 0.0000000000000000000 ) ) ;
#181 = DATE_AND_TIME ( #86, #227 ) ;
#182 = CARTESIAN_POINT ( 'NONE',  ( -4.835541689285349776E-14, 69.79966576965213676, 0.0000000000000000000 ) ) ;
#183 = PERSON_AND_ORGANIZATION ( #117, #242 ) ;
#184 = DIRECTION ( 'NONE',  ( -1.224646799147352961E-16, 0.0000000000000000000, -1.000000000000000000 ) ) ;
#185 = APPLICATION_CONTEXT ( 'configuration controlled 3d designs of mechanical parts and assemblies' ) ;
#186 = EDGE_CURVE ( 'NONE', #263, #296, #280, .T. ) ;
#187 = DIRECTION ( 'NONE',  ( 0.0000000000000000000, 0.0000000000000000000, -1.000000000000000000 ) ) ;
#188 = CLOSED_SHELL ( 'NONE', ( #245, #276, #97, #72, #25, #264, #301, #64, #240 ) ) ;
#189 = PRODUCT_DEFINITION_FORMATION_WITH_SPECIFIED_SOURCE ( 'HERHANGÝ', '', #104, .NOT_KNOWN. ) ;
#190 = TOROIDAL_SURFACE ( 'NONE', #14, 0.7794972238090204231, 122.2000749799277486 ) ;
#191 = DIRECTION ( 'NONE',  ( 0.0000000000000000000, 0.0000000000000000000, -1.000000000000000000 ) ) ;
#192 = CC_DESIGN_DATE_AND_TIME_ASSIGNMENT ( #299, #88, ( #267 ) ) ;
#193 = DIRECTION ( 'NONE',  ( 0.0000000000000000000, 0.0000000000000000000, -1.000000000000000000 ) ) ;
#194 = ORIENTED_EDGE ( 'NONE', *, *, #8, .F. ) ;
#195 = EDGE_CURVE ( 'NONE', #103, #46, #40, .T. ) ;
#196 = DESIGN_CONTEXT ( 'detailed design', #201, 'design' ) ;
#197 = CARTESIAN_POINT ( 'NONE',  ( 3.857637417314159533E-15, 0.0000000000000000000, 31.49999999999997158 ) ) ;
#198 = DIRECTION ( 'NONE',  ( 0.0000000000000000000, 0.0000000000000000000, -1.000000000000000000 ) ) ;
#199 = VERTEX_POINT ( 'NONE', #259 ) ;
#200 = ORIENTED_EDGE ( 'NONE', *, *, #41, .T. ) ;
#201 = APPLICATION_CONTEXT ( 'configuration controlled 3d designs of mechanical parts and assemblies' ) ;
#202 = AXIS2_PLACEMENT_3D ( 'NONE', #92, #87, #191 ) ;
#203 = APPROVAL_ROLE ( '' ) ;
#204 = ORIENTED_EDGE ( 'NONE', *, *, #304, .F. ) ;
#205 = APPROVAL_ROLE ( '' ) ;
#206 = DIRECTION ( 'NONE',  ( -0.0000000000000000000, -1.000000000000000000, -0.0000000000000000000 ) ) ;
#207 = CALENDAR_DATE ( 2019, 16, 12 ) ;
#208 = CARTESIAN_POINT ( 'NONE',  ( 0.0000000000000000000, 65.99966576965211118, -31.49999999999997158 ) ) ;
#209 = DIRECTION ( 'NONE',  ( 0.0000000000000000000, 0.0000000000000000000, -1.000000000000000000 ) ) ;
#210 = CARTESIAN_POINT ( 'NONE',  ( 0.0000000000000000000, 0.0000000000000000000, 0.0000000000000000000 ) ) ;
#211 = AXIS2_PLACEMENT_3D ( 'NONE', #134, #214, #226 ) ;
#212 = CC_DESIGN_SECURITY_CLASSIFICATION ( #267, ( #189 ) ) ;
#213 = CC_DESIGN_PERSON_AND_ORGANIZATION_ASSIGNMENT ( #57, #156, ( #19 ) ) ;
#214 = DIRECTION ( 'NONE',  ( -0.0000000000000000000, -1.000000000000000000, -0.0000000000000000000 ) ) ;
#215 = CARTESIAN_POINT ( 'NONE',  ( -1.432716039157874320E-14, 65.99966576965211118, 0.0000000000000000000 ) ) ;
#216 = VECTOR ( 'NONE', #63, 1000.000000000000000 ) ;
#217 = ORIENTED_EDGE ( 'NONE', *, *, #165, .F. ) ;
#218 = CIRCLE ( 'NONE', #233, 27.69999999999996732 ) ;
#219 = EDGE_CURVE ( 'NONE', #46, #103, #1, .T. ) ;
#220 = PLANE ( 'NONE',  #149 ) ;
#221 = FACE_OUTER_BOUND ( 'NONE', #146, .T. ) ;
#222 = VERTEX_POINT ( 'NONE', #232 ) ;
#223 = APPLICATION_PROTOCOL_DEFINITION ( 'international standard', 'config_control_design', 1994, #201 ) ;
#224 = EDGE_LOOP ( 'NONE', ( #10, #54, #292, #287 ) ) ;
#225 = DATE_TIME_ROLE ( 'creation_date' ) ;
#226 = DIRECTION ( 'NONE',  ( 0.0000000000000000000, 0.0000000000000000000, -1.000000000000000000 ) ) ;
#227 = LOCAL_TIME ( 14, 43, 28.00000000000000000, #297 ) ;
#228 = TOROIDAL_SURFACE ( 'NONE', #50, 0.7794972238090204231, 122.2000749799277486 ) ;
#229 = PERSON_AND_ORGANIZATION ( #117, #242 ) ;
#230 = LINE ( 'NONE', #16, #123 ) ;
#231 = SHAPE_DEFINITION_REPRESENTATION ( #78, #59 ) ;
#232 = CARTESIAN_POINT ( 'NONE',  ( 0.0000000000000000000, 0.0000000000000000000, -31.49999999999997158 ) ) ;
#233 = AXIS2_PLACEMENT_3D ( 'NONE', #247, #27, #127 ) ;
#234 = EDGE_CURVE ( 'NONE', #125, #169, #268, .T. ) ;
#235 = DIRECTION ( 'NONE',  ( -0.0000000000000000000, -1.000000000000000000, -0.0000000000000000000 ) ) ;
#236 = FACE_OUTER_BOUND ( 'NONE', #224, .T. ) ;
#237 = APPROVAL ( #106, 'BELÝRTÝLMEMÝÞ' ) ;
#238 = CYLINDRICAL_SURFACE ( 'NONE', #289, 27.69999999999997087 ) ;
#239 = ORIENTED_EDGE ( 'NONE', *, *, #219, .F. ) ;
#240 = ADVANCED_FACE ( 'NONE', ( #221 ), #228, .F. ) ;
#241 = AXIS2_PLACEMENT_3D ( 'NONE', #298, #284, #68 ) ;
#242 = ORGANIZATION ( 'BELÝRTÝLMEMÝÞ', 'BELÝRTÝLMEMÝÞ', '' ) ;
#243 = ORIENTED_EDGE ( 'NONE', *, *, #121, .T. ) ;
#244 = AXIS2_PLACEMENT_3D ( 'NONE', #66, #235, #187 ) ;
#245 = ADVANCED_FACE ( 'NONE', ( #28 ), #190, .F. ) ;
#246 = DIRECTION ( 'NONE',  ( 0.0000000000000000000, 0.0000000000000000000, -1.000000000000000000 ) ) ;
#247 = CARTESIAN_POINT ( 'NONE',  ( 0.0000000000000000000, 62.99999999999995737, 0.0000000000000000000 ) ) ;
#248 = CC_DESIGN_PERSON_AND_ORGANIZATION_ASSIGNMENT ( #229, #15, ( #267 ) ) ;
#249 = CARTESIAN_POINT ( 'NONE',  ( 0.0000000000000000000, -56.19792303298354597, 0.0000000000000000000 ) ) ;
#250 = EDGE_LOOP ( 'NONE', ( #305, #204, #29, #82 ) ) ;
#251 = MANIFOLD_SOLID_BREP ( 'Döndür1', #188 ) ;
#252 = ORIENTED_EDGE ( 'NONE', *, *, #294, .T. ) ;
#253 = COORDINATED_UNIVERSAL_TIME_OFFSET ( 3, 0, .AHEAD. ) ;
#254 = DIRECTION ( 'NONE',  ( -0.0000000000000000000, -1.000000000000000000, -0.0000000000000000000 ) ) ;
#255 = AXIS2_PLACEMENT_3D ( 'NONE', #144, #254, #193 ) ;
#256 = PERSON_AND_ORGANIZATION ( #117, #242 ) ;
#257 = LINE ( 'NONE', #37, #293 ) ;
#258 = CALENDAR_DATE ( 2019, 16, 12 ) ;
#259 = CARTESIAN_POINT ( 'NONE',  ( 3.392271633638164866E-15, 62.99999999999995737, 27.69999999999996732 ) ) ;
#260 = CIRCLE ( 'NONE', #83, 122.2000749799277486 ) ;
#261 = CARTESIAN_POINT ( 'NONE',  ( 0.0000000000000000000, 0.0000000000000000000, -27.69999999999997442 ) ) ;
#262 = DIRECTION ( 'NONE',  ( -0.0000000000000000000, -1.000000000000000000, -0.0000000000000000000 ) ) ;
#263 = VERTEX_POINT ( 'NONE', #173 ) ;
#264 = ADVANCED_FACE ( 'NONE', ( #101, #4 ), #220, .T. ) ;
#265 = ORIENTED_EDGE ( 'NONE', *, *, #186, .F. ) ;
#266 = CIRCLE ( 'NONE', #135, 125.9999999999999432 ) ;
#267 = SECURITY_CLASSIFICATION ( '', '', #138 ) ;
#268 = CIRCLE ( 'NONE', #93, 125.9999999999999432 ) ;
#269 = UNCERTAINTY_MEASURE_WITH_UNIT (LENGTH_MEASURE( 1.000000000000000082E-05 ), #102, 'distance_accuracy_value', 'NONE');
#270 = CARTESIAN_POINT ( 'NONE',  ( 0.0000000000000000000, 0.0000000000000000000, 0.0000000000000000000 ) ) ;
#271 = ORIENTED_EDGE ( 'NONE', *, *, #234, .T. ) ;
#272 = DIRECTION ( 'NONE',  ( 1.000000000000000000, 0.0000000000000000000, 0.0000000000000000000 ) ) ;
#273 = ORIENTED_EDGE ( 'NONE', *, *, #110, .F. ) ;
#274 = APPROVAL_DATE_TIME ( #179, #237 ) ;
#275 = DIRECTION ( 'NONE',  ( 1.000000000000000000, 0.0000000000000000000, -1.224646799147353207E-16 ) ) ;
#276 = ADVANCED_FACE ( 'NONE', ( #150 ), #283, .T. ) ;
#277 = APPROVAL_DATE_TIME ( #181, #100 ) ;
#278 = CARTESIAN_POINT ( 'NONE',  ( 0.0000000000000000000, 65.99966576965211118, 0.0000000000000000000 ) ) ;
#279 = APPROVAL_STATUS ( 'not_yet_approved' ) ;
#280 = LINE ( 'NONE', #197, #216 ) ;
#281 = CIRCLE ( 'NONE', #241, 31.49999999999997158 ) ;
#282 = LOCAL_TIME ( 14, 43, 28.00000000000000000, #295 ) ;
#283 = TOROIDAL_SURFACE ( 'NONE', #244, 0.7794972238090204231, 125.9999999999999432 ) ;
#284 = DIRECTION ( 'NONE',  ( -0.0000000000000000000, -1.000000000000000000, -0.0000000000000000000 ) ) ;
#285 = DIRECTION ( 'NONE',  ( 0.0000000000000000000, 0.0000000000000000000, -1.000000000000000000 ) ) ;
#286 = CARTESIAN_POINT ( 'NONE',  ( 0.0000000000000000000, -56.19792303298354597, -0.7794972238090204231 ) ) ;
#287 = ORIENTED_EDGE ( 'NONE', *, *, #41, .F. ) ;
#288 = DIRECTION ( 'NONE',  ( -0.0000000000000000000, -1.000000000000000000, -0.0000000000000000000 ) ) ;
#289 = AXIS2_PLACEMENT_3D ( 'NONE', #21, #157, #285 ) ;
#290 = DIRECTION ( 'NONE',  ( -0.0000000000000000000, -1.000000000000000000, -0.0000000000000000000 ) ) ;
#291 = EDGE_LOOP ( 'NONE', ( #71, #45, #168 ) ) ;
#292 = ORIENTED_EDGE ( 'NONE', *, *, #294, .F. ) ;
#293 = VECTOR ( 'NONE', #139, 1000.000000000000000 ) ;
#294 = EDGE_CURVE ( 'NONE', #222, #296, #67, .T. ) ;
#295 = COORDINATED_UNIVERSAL_TIME_OFFSET ( 3, 0, .AHEAD. ) ;
#296 = VERTEX_POINT ( 'NONE', #124 ) ;
#297 = COORDINATED_UNIVERSAL_TIME_OFFSET ( 3, 0, .AHEAD. ) ;
#298 = CARTESIAN_POINT ( 'NONE',  ( 0.0000000000000000000, 65.99966576965211118, 0.0000000000000000000 ) ) ;
#299 = DATE_AND_TIME ( #207, #136 ) ;
#300 = CARTESIAN_POINT ( 'NONE',  ( 9.546087800819648841E-17, -56.19792303298354597, 0.7794972238090204231 ) ) ;
#301 = ADVANCED_FACE ( 'NONE', ( #74 ), #172, .T. ) ;
#302 = CC_DESIGN_PERSON_AND_ORGANIZATION_ASSIGNMENT ( #256, #36, ( #189 ) ) ;
#303 = CARTESIAN_POINT ( 'NONE',  ( 0.0000000000000000000, -56.19792303298354597, -0.7794972238090204231 ) ) ;
#304 = EDGE_CURVE ( 'NONE', #7, #199, #218, .T. ) ;
#305 = ORIENTED_EDGE ( 'NONE', *, *, #155, .F. ) ;
#306 = APPROVAL_PERSON_ORGANIZATION ( #183, #142, #62 ) ;
#307 = DIRECTION ( 'NONE',  ( 0.0000000000000000000, 0.0000000000000000000, 1.000000000000000000 ) ) ;
ENDSEC;
END-ISO-10303-21;
